ISO-10303-21;
HEADER;
FILE_DESCRIPTION (( 'STEP AP203' ),
    '1' );
FILE_NAME ('Q-QZWP-R4-20-266-M.STEP',
    '2020-12-23T01:25:29',
    ( '' ),
    ( '' ),
    'SwSTEP 2.0',
    'SolidWorks 2020',
    '' );
FILE_SCHEMA (( 'CONFIG_CONTROL_DESIGN' ));
ENDSEC;

DATA;
#1 = PLANE ( 'NONE',  #211 ) ;
#2 = AXIS2_PLACEMENT_3D ( 'NONE', #269, #268, #324 ) ;
#3 = AXIS2_PLACEMENT_3D ( 'NONE', #58, #8, #154 ) ;
#4 = DIRECTION ( 'NONE',  ( -1.000000000000000000, 0.000000000000000000, -0.000000000000000000 ) ) ;
#5 = EDGE_CURVE ( 'NONE', #54, #204, #232, .T. ) ;
#6 = EDGE_CURVE ( 'NONE', #313, #101, #273, .T. ) ;
#7 = DIRECTION ( 'NONE',  ( -1.000000000000000000, -0.000000000000000000, -0.000000000000000000 ) ) ;
#8 = DIRECTION ( 'NONE',  ( -1.000000000000000000, -0.000000000000000000, -0.000000000000000000 ) ) ;
#9 = ORGANIZATION ( 'UNSPECIFIED', 'UNSPECIFIED', '' ) ;
#10 = DIRECTION ( 'NONE',  ( -0.000000000000000000, 0.000000000000000000, 1.000000000000000000 ) ) ;
#11 = CARTESIAN_POINT ( 'NONE',  ( 2.999999999999999112, 0.000000000000000000, 0.000000000000000000 ) ) ;
#12 = DIRECTION ( 'NONE',  ( -1.000000000000000000, -0.000000000000000000, -0.000000000000000000 ) ) ;
#13 = PERSON_AND_ORGANIZATION ( #310, #9 ) ;
#14 = FACE_OUTER_BOUND ( 'NONE', #254, .T. ) ;
#15 = ADVANCED_FACE ( 'NONE', ( #133 ), #265, .F. ) ;
#16 = APPROVAL ( #94, 'UNSPECIFIED' ) ;
#17 = CALENDAR_DATE ( 2020, 23, 12 ) ;
#18 = DIRECTION ( 'NONE',  ( -1.000000000000000000, -0.000000000000000000, -0.000000000000000000 ) ) ;
#19 = DIRECTION ( 'NONE',  ( -1.000000000000000000, -0.000000000000000000, -0.000000000000000000 ) ) ;
#20 = CARTESIAN_POINT ( 'NONE',  ( 0.000000000000000000, 0.000000000000000000, 0.000000000000000000 ) ) ;
#21 = CIRCLE ( 'NONE', #263, 12.69999999999999929 ) ;
#22 = ORIENTED_EDGE ( 'NONE', *, *, #215, .F. ) ;
#23 = AXIS2_PLACEMENT_3D ( 'NONE', #315, #7, #84 ) ;
#24 = MECHANICAL_CONTEXT ( 'NONE', #172, 'mechanical' ) ;
#25 = VERTEX_POINT ( 'NONE', #83 ) ;
#26 = ORIENTED_EDGE ( 'NONE', *, *, #6, .T. ) ;
#27 = ORIENTED_EDGE ( 'NONE', *, *, #56, .T. ) ;
#28 = AXIS2_PLACEMENT_3D ( 'NONE', #126, #180, #79 ) ;
#29 = ORIENTED_EDGE ( 'NONE', *, *, #90, .T. ) ;
#30 = CARTESIAN_POINT ( 'NONE',  ( -1.614212418857619014, 0.000000000000000000, 0.000000000000000000 ) ) ;
#31 = FACE_OUTER_BOUND ( 'NONE', #173, .T. ) ;
#32 = VECTOR ( 'NONE', #288, 1000.000000000000000 ) ;
#33 = LINE ( 'NONE', #312, #32 ) ;
#34 = CARTESIAN_POINT ( 'NONE',  ( 2.999999999999999112, 12.69999999999999929, 0.000000000000000000 ) ) ;
#35 = CARTESIAN_POINT ( 'NONE',  ( 2.500000000000000444, 10.00000000000000000, 0.000000000000000000 ) ) ;
#36 = CC_DESIGN_APPROVAL ( #52, ( #253 ) ) ;
#37 = DIRECTION ( 'NONE',  ( 1.000000000000000000, 0.000000000000000000, 0.000000000000000000 ) ) ;
#38 = CC_DESIGN_PERSON_AND_ORGANIZATION_ASSIGNMENT ( #89, #40, ( #253 ) ) ;
#39 = DIRECTION ( 'NONE',  ( -1.000000000000000000, -0.000000000000000000, -0.000000000000000000 ) ) ;
#40 = PERSON_AND_ORGANIZATION_ROLE ( 'design_supplier' ) ;
#41 = DIRECTION ( 'NONE',  ( -1.000000000000000000, -0.000000000000000000, -0.000000000000000000 ) ) ;
#42 = AXIS2_PLACEMENT_3D ( 'NONE', #252, #19, #158 ) ;
#43 = CARTESIAN_POINT ( 'NONE',  ( -3.000000000000000000, 0.000000000000000000, 12.69999999999999929 ) ) ;
#44 = DATE_TIME_ROLE ( 'classification_date' ) ;
#45 = CYLINDRICAL_SURFACE ( 'NONE', #2, 10.00000000000000000 ) ;
#46 = PERSON_AND_ORGANIZATION ( #310, #9 ) ;
#47 = APPROVAL_DATE_TIME ( #320, #16 ) ;
#48 = CC_DESIGN_APPROVAL ( #240, ( #223 ) ) ;
#49 = ORIENTED_EDGE ( 'NONE', *, *, #170, .F. ) ;
#50 = ORIENTED_EDGE ( 'NONE', *, *, #272, .F. ) ;
#51 = ORIENTED_EDGE ( 'NONE', *, *, #67, .F. ) ;
#52 = APPROVAL ( #166, 'UNSPECIFIED' ) ;
#53 = APPROVAL_PERSON_ORGANIZATION ( #250, #16, #96 ) ;
#54 = VERTEX_POINT ( 'NONE', #152 ) ;
#55 = ORIENTED_EDGE ( 'NONE', *, *, #209, .F. ) ;
#56 = EDGE_CURVE ( 'NONE', #98, #308, #194, .T. ) ;
#57 = LINE ( 'NONE', #150, #306 ) ;
#58 = CARTESIAN_POINT ( 'NONE',  ( -3.000000000000000000, 0.000000000000000000, 0.000000000000000000 ) ) ;
#59 = ADVANCED_FACE ( 'NONE', ( #103, #153 ), #124, .F. ) ;
#60 = DIRECTION ( 'NONE',  ( -1.000000000000000000, -0.000000000000000000, -0.000000000000000000 ) ) ;
#61 = DIRECTION ( 'NONE',  ( 0.000000000000000000, 0.000000000000000000, -1.000000000000000000 ) ) ;
#62 = LINE ( 'NONE', #222, #144 ) ;
#63 = LOCAL_TIME ( 9, 25, 29.00000000000000000, #226 ) ;
#64 = CLOSED_SHELL ( 'NONE', ( #74, #187, #216, #130, #177, #15, #73, #258, #59, #231 ) ) ;
#65 = FACE_OUTER_BOUND ( 'NONE', #334, .T. ) ;
#66 = CALENDAR_DATE ( 2020, 23, 12 ) ;
#67 = EDGE_CURVE ( 'NONE', #101, #313, #81, .T. ) ;
#68 = CARTESIAN_POINT ( 'NONE',  ( -1.614212418857619014, 0.000000000000000000, 0.000000000000000000 ) ) ;
#69 = APPROVAL_ROLE ( '' ) ;
#70 = PLANE ( 'NONE',  #243 ) ;
#71 = PERSON_AND_ORGANIZATION ( #310, #9 ) ;
#72 = ORIENTED_EDGE ( 'NONE', *, *, #5, .F. ) ;
#73 = ADVANCED_FACE ( 'NONE', ( #212, #104 ), #1, .F. ) ;
#74 = ADVANCED_FACE ( 'NONE', ( #294 ), #107, .T. ) ;
#75 = ORIENTED_EDGE ( 'NONE', *, *, #272, .T. ) ;
#76 = VERTEX_POINT ( 'NONE', #235 ) ;
#77 = ORIENTED_EDGE ( 'NONE', *, *, #282, .F. ) ;
#78 = DIRECTION ( 'NONE',  ( -1.000000000000000000, -0.000000000000000000, -0.000000000000000000 ) ) ;
#79 = DIRECTION ( 'NONE',  ( 0.000000000000000000, 0.000000000000000000, 1.000000000000000000 ) ) ;
#80 = CARTESIAN_POINT ( 'NONE',  ( -3.000000000000000000, 10.00000000000000000, 0.000000000000000000 ) ) ;
#81 = CIRCLE ( 'NONE', #28, 10.00000000000000000 ) ;
#82 = EDGE_CURVE ( 'NONE', #25, #309, #134, .T. ) ;
#83 = CARTESIAN_POINT ( 'NONE',  ( -2.500000000000000444, 0.000000000000000000, 10.00000000000000000 ) ) ;
#84 = DIRECTION ( 'NONE',  ( 0.000000000000000000, 0.000000000000000000, 1.000000000000000000 ) ) ;
#85 = CARTESIAN_POINT ( 'NONE',  ( -3.000000000000000444, 1.224646799147353256E-15, -10.00000000000000000 ) ) ;
#86 = LOCAL_TIME ( 9, 25, 29.00000000000000000, #248 ) ;
#87 = COORDINATED_UNIVERSAL_TIME_OFFSET ( 8, 0, .AHEAD. ) ;
#88 = CARTESIAN_POINT ( 'NONE',  ( -1.614212418857619014, 0.000000000000000000, 10.00000000000000000 ) ) ;
#89 = PERSON_AND_ORGANIZATION ( #310, #9 ) ;
#90 = EDGE_CURVE ( 'NONE', #204, #54, #298, .T. ) ;
#91 = DESIGN_CONTEXT ( 'detailed design', #278, 'design' ) ;
#92 = PRODUCT_RELATED_PRODUCT_CATEGORY ( 'detail', '', ( #307 ) ) ;
#93 = CYLINDRICAL_SURFACE ( 'NONE', #318, 10.00000000000000000 ) ;
#94 = APPROVAL_STATUS ( 'not_yet_approved' ) ;
#95 = DIRECTION ( 'NONE',  ( -1.000000000000000000, -0.000000000000000000, -0.000000000000000000 ) ) ;
#96 = APPROVAL_ROLE ( '' ) ;
#97 = DIRECTION ( 'NONE',  ( 1.000000000000000000, 0.000000000000000000, 0.000000000000000000 ) ) ;
#98 = VERTEX_POINT ( 'NONE', #178 ) ;
#99 = ORIENTED_EDGE ( 'NONE', *, *, #5, .T. ) ;
#100 = ORIENTED_EDGE ( 'NONE', *, *, #6, .F. ) ;
#101 = VERTEX_POINT ( 'NONE', #290 ) ;
#102 = LOCAL_TIME ( 9, 25, 29.00000000000000000, #325 ) ;
#103 = FACE_OUTER_BOUND ( 'NONE', #198, .T. ) ;
#104 = FACE_OUTER_BOUND ( 'NONE', #171, .T. ) ;
#105 = DIRECTION ( 'NONE',  ( 0.000000000000000000, 0.000000000000000000, 1.000000000000000000 ) ) ;
#106 = AXIS2_PLACEMENT_3D ( 'NONE', #206, #239, #241 ) ;
#107 = CYLINDRICAL_SURFACE ( 'NONE', #108, 12.69999999999999929 ) ;
#108 = AXIS2_PLACEMENT_3D ( 'NONE', #131, #78, #207 ) ;
#109 = DIRECTION ( 'NONE',  ( -1.000000000000000000, -0.000000000000000000, -0.000000000000000000 ) ) ;
#110 = DIRECTION ( 'NONE',  ( 0.000000000000000000, 0.000000000000000000, 1.000000000000000000 ) ) ;
#111 = CARTESIAN_POINT ( 'NONE',  ( -2.500000000000000444, 1.224646799147353256E-15, -10.00000000000000000 ) ) ;
#112 = CALENDAR_DATE ( 2020, 23, 12 ) ;
#113 = CARTESIAN_POINT ( 'NONE',  ( 2.999999999999999112, 1.224646799147353256E-15, -10.00000000000000000 ) ) ;
#114 = APPROVAL_DATE_TIME ( #279, #52 ) ;
#115 = DIRECTION ( 'NONE',  ( 0.000000000000000000, 0.000000000000000000, 1.000000000000000000 ) ) ;
#116 = CYLINDRICAL_SURFACE ( 'NONE', #118, 10.00000000000000000 ) ;
#117 = APPLICATION_PROTOCOL_DEFINITION ( 'international standard', 'config_control_design', 1994, #172 ) ;
#118 = AXIS2_PLACEMENT_3D ( 'NONE', #195, #95, #213 ) ;
#119 = ORIENTED_EDGE ( 'NONE', *, *, #190, .T. ) ;
#120 = ORIENTED_EDGE ( 'NONE', *, *, #170, .T. ) ;
#121 = ORIENTED_EDGE ( 'NONE', *, *, #155, .T. ) ;
#122 = EDGE_CURVE ( 'NONE', #309, #25, #267, .T. ) ;
#123 = ORIENTED_EDGE ( 'NONE', *, *, #56, .F. ) ;
#124 = PLANE ( 'NONE',  #164 ) ;
#125 = LOCAL_TIME ( 9, 25, 29.00000000000000000, #87 ) ;
#126 = CARTESIAN_POINT ( 'NONE',  ( -3.000000000000000444, 0.000000000000000000, 0.000000000000000000 ) ) ;
#127 = CC_DESIGN_DATE_AND_TIME_ASSIGNMENT ( #143, #44, ( #223 ) ) ;
#128 = DIRECTION ( 'NONE',  ( 0.000000000000000000, 0.000000000000000000, 1.000000000000000000 ) ) ;
#129 = EDGE_CURVE ( 'NONE', #76, #285, #179, .T. ) ;
#130 = ADVANCED_FACE ( 'NONE', ( #266 ), #176, .F. ) ;
#131 = CARTESIAN_POINT ( 'NONE',  ( -1.614212418857619014, 0.000000000000000000, 0.000000000000000000 ) ) ;
#132 = CIRCLE ( 'NONE', #42, 10.00000000000000000 ) ;
#133 = FACE_OUTER_BOUND ( 'NONE', #145, .T. ) ;
#134 = CIRCLE ( 'NONE', #106, 10.00000000000000000 ) ;
#135 = DIRECTION ( 'NONE',  ( -1.000000000000000000, -0.000000000000000000, -0.000000000000000000 ) ) ;
#136 = PERSON_AND_ORGANIZATION_ROLE ( 'design_owner' ) ;
#137 = CARTESIAN_POINT ( 'NONE',  ( 3.000000000000000000, 0.000000000000000000, 12.69999999999999929 ) ) ;
#138 = AXIS2_PLACEMENT_3D ( 'NONE', #35, #208, #10 ) ;
#139 = CARTESIAN_POINT ( 'NONE',  ( -2.500000000000000444, 10.00000000000000000, 0.000000000000000000 ) ) ;
#140 = PERSON_AND_ORGANIZATION ( #310, #9 ) ;
#141 = CARTESIAN_POINT ( 'NONE',  ( 3.000000000000000000, 0.000000000000000000, 0.000000000000000000 ) ) ;
#142 = APPROVAL_STATUS ( 'not_yet_approved' ) ;
#143 = DATE_AND_TIME ( #112, #102 ) ;
#144 = VECTOR ( 'NONE', #246, 1000.000000000000000 ) ;
#145 = EDGE_LOOP ( 'NONE', ( #311, #203, #120, #287 ) ) ;
#146 = EDGE_LOOP ( 'NONE', ( #51, #100 ) ) ;
#147 = ORIENTED_EDGE ( 'NONE', *, *, #329, .T. ) ;
#148 = ORIENTED_EDGE ( 'NONE', *, *, #122, .F. ) ;
#149 = DIRECTION ( 'NONE',  ( 0.000000000000000000, 0.000000000000000000, -1.000000000000000000 ) ) ;
#150 = CARTESIAN_POINT ( 'NONE',  ( -1.614212418857619014, 0.000000000000000000, 10.00000000000000000 ) ) ;
#151 = CIRCLE ( 'NONE', #174, 10.00000000000000000 ) ;
#152 = CARTESIAN_POINT ( 'NONE',  ( -3.000000000000000000, 1.555301434917138433E-15, -12.69999999999999929 ) ) ;
#153 = FACE_BOUND ( 'NONE', #256, .T. ) ;
#154 = DIRECTION ( 'NONE',  ( 0.000000000000000000, 0.000000000000000000, 1.000000000000000000 ) ) ;
#155 = EDGE_CURVE ( 'NONE', #228, #308, #33, .T. ) ;
#156 = VECTOR ( 'NONE', #12, 1000.000000000000000 ) ;
#157 = DIRECTION ( 'NONE',  ( 0.000000000000000000, 0.000000000000000000, 1.000000000000000000 ) ) ;
#158 = DIRECTION ( 'NONE',  ( 0.000000000000000000, 0.000000000000000000, 1.000000000000000000 ) ) ;
#159 = COORDINATED_UNIVERSAL_TIME_OFFSET ( 8, 0, .AHEAD. ) ;
#160 =( NAMED_UNIT ( * ) PLANE_ANGLE_UNIT ( ) SI_UNIT ( $, .RADIAN. ) );
#161 = LINE ( 'NONE', #271, #168 ) ;
#162 = CC_DESIGN_DATE_AND_TIME_ASSIGNMENT ( #224, #219, ( #230 ) ) ;
#163 = PERSON_AND_ORGANIZATION ( #310, #9 ) ;
#164 = AXIS2_PLACEMENT_3D ( 'NONE', #34, #4, #244 ) ;
#165 = LINE ( 'NONE', #220, #156 ) ;
#166 = APPROVAL_STATUS ( 'not_yet_approved' ) ;
#167 = ORIENTED_EDGE ( 'NONE', *, *, #314, .F. ) ;
#168 = VECTOR ( 'NONE', #39, 1000.000000000000000 ) ;
#169 = ORIENTED_EDGE ( 'NONE', *, *, #209, .T. ) ;
#170 = EDGE_CURVE ( 'NONE', #25, #101, #57, .T. ) ;
#171 = EDGE_LOOP ( 'NONE', ( #29, #99 ) ) ;
#172 = APPLICATION_CONTEXT ( 'configuration controlled 3d designs of mechanical parts and assemblies' ) ;
#173 = EDGE_LOOP ( 'NONE', ( #233, #55, #75, #27 ) ) ;
#174 = AXIS2_PLACEMENT_3D ( 'NONE', #11, #247, #157 ) ;
#175 = ORIENTED_EDGE ( 'NONE', *, *, #82, .T. ) ;
#176 = PLANE ( 'NONE',  #138 ) ;
#177 = ADVANCED_FACE ( 'NONE', ( #31 ), #93, .F. ) ;
#178 = CARTESIAN_POINT ( 'NONE',  ( 2.500000000000000888, 0.000000000000000000, 10.00000000000000000 ) ) ;
#179 = CIRCLE ( 'NONE', #249, 12.69999999999999929 ) ;
#180 = DIRECTION ( 'NONE',  ( -1.000000000000000000, -0.000000000000000000, -0.000000000000000000 ) ) ;
#181 = CARTESIAN_POINT ( 'NONE',  ( 3.000000000000000000, 0.000000000000000000, 0.000000000000000000 ) ) ;
#182 = CARTESIAN_POINT ( 'NONE',  ( 2.500000000000000888, 0.000000000000000000, 0.000000000000000000 ) ) ;
#183 = APPROVAL_PERSON_ORGANIZATION ( #13, #240, #69 ) ;
#184 = DIRECTION ( 'NONE',  ( 0.000000000000000000, 0.000000000000000000, 1.000000000000000000 ) ) ;
#185 = CC_DESIGN_PERSON_AND_ORGANIZATION_ASSIGNMENT ( #274, #300, ( #223 ) ) ;
#186 =( LENGTH_UNIT ( ) NAMED_UNIT ( * ) SI_UNIT ( .MILLI., .METRE. ) );
#187 = ADVANCED_FACE ( 'NONE', ( #65 ), #116, .F. ) ;
#188 = DIRECTION ( 'NONE',  ( -1.000000000000000000, -0.000000000000000000, -0.000000000000000000 ) ) ;
#189 = DATE_AND_TIME ( #304, #125 ) ;
#190 = EDGE_CURVE ( 'NONE', #309, #313, #62, .T. ) ;
#191 = FACE_OUTER_BOUND ( 'NONE', #281, .T. ) ;
#192 = AXIS2_PLACEMENT_3D ( 'NONE', #301, #41, #110 ) ;
#193 = PERSON_AND_ORGANIZATION_ROLE ( 'creator' ) ;
#194 = CIRCLE ( 'NONE', #245, 10.00000000000000000 ) ;
#195 = CARTESIAN_POINT ( 'NONE',  ( -1.614212418857619014, 0.000000000000000000, 0.000000000000000000 ) ) ;
#196 = CALENDAR_DATE ( 2020, 23, 12 ) ;
#197 = MANIFOLD_SOLID_BREP ( 'Ðý×', #64 ) ;
#198 = EDGE_LOOP ( 'NONE', ( #167, #260 ) ) ;
#199 = ORIENTED_EDGE ( 'NONE', *, *, #202, .F. ) ;
#200 = AXIS2_PLACEMENT_3D ( 'NONE', #210, #316, #61 ) ;
#201 = ORIENTED_EDGE ( 'NONE', *, *, #90, .F. ) ;
#202 = EDGE_CURVE ( 'NONE', #76, #54, #161, .T. ) ;
#203 = ORIENTED_EDGE ( 'NONE', *, *, #122, .T. ) ;
#204 = VERTEX_POINT ( 'NONE', #43 ) ;
#205 =( GEOMETRIC_REPRESENTATION_CONTEXT ( 3 ) GLOBAL_UNCERTAINTY_ASSIGNED_CONTEXT ( ( #295 ) ) GLOBAL_UNIT_ASSIGNED_CONTEXT ( ( #186, #160, #277 ) ) REPRESENTATION_CONTEXT ( 'NONE', 'WORKASPACE' ) );
#206 = CARTESIAN_POINT ( 'NONE',  ( -2.500000000000000444, 0.000000000000000000, 0.000000000000000000 ) ) ;
#207 = DIRECTION ( 'NONE',  ( 0.000000000000000000, 0.000000000000000000, 1.000000000000000000 ) ) ;
#208 = DIRECTION ( 'NONE',  ( -1.000000000000000000, 0.000000000000000000, -0.000000000000000000 ) ) ;
#209 = EDGE_CURVE ( 'NONE', #259, #228, #151, .T. ) ;
#210 = CARTESIAN_POINT ( 'NONE',  ( -2.500000000000000444, 0.000000000000000000, 0.000000000000000000 ) ) ;
#211 = AXIS2_PLACEMENT_3D ( 'NONE', #80, #293, #149 ) ;
#212 = FACE_BOUND ( 'NONE', #146, .T. ) ;
#213 = DIRECTION ( 'NONE',  ( 0.000000000000000000, 0.000000000000000000, 1.000000000000000000 ) ) ;
#214 = LINE ( 'NONE', #88, #229 ) ;
#215 = EDGE_CURVE ( 'NONE', #228, #259, #333, .T. ) ;
#216 = ADVANCED_FACE ( 'NONE', ( #14 ), #45, .F. ) ;
#217 = APPROVAL_DATE_TIME ( #189, #240 ) ;
#218 = FACE_OUTER_BOUND ( 'NONE', #335, .T. ) ;
#219 = DATE_TIME_ROLE ( 'creation_date' ) ;
#220 = CARTESIAN_POINT ( 'NONE',  ( -1.614212418857619014, 0.000000000000000000, 12.69999999999999929 ) ) ;
#221 = SECURITY_CLASSIFICATION_LEVEL ( 'unclassified' ) ;
#222 = CARTESIAN_POINT ( 'NONE',  ( -1.614212418857619014, 1.224646799147353256E-15, -10.00000000000000000 ) ) ;
#223 = SECURITY_CLASSIFICATION ( '', '', #221 ) ;
#224 = DATE_AND_TIME ( #17, #63 ) ;
#225 = EDGE_LOOP ( 'NONE', ( #283, #284, #201, #77 ) ) ;
#226 = COORDINATED_UNIVERSAL_TIME_OFFSET ( 8, 0, .AHEAD. ) ;
#227 = ORIENTED_EDGE ( 'NONE', *, *, #215, .T. ) ;
#228 = VERTEX_POINT ( 'NONE', #113 ) ;
#229 = VECTOR ( 'NONE', #135, 1000.000000000000000 ) ;
#230 = PRODUCT_DEFINITION ( 'UNKNOWN', '', #253, #91 ) ;
#231 = ADVANCED_FACE ( 'NONE', ( #218 ), #70, .F. ) ;
#232 = CIRCLE ( 'NONE', #237, 12.69999999999999929 ) ;
#233 = ORIENTED_EDGE ( 'NONE', *, *, #155, .F. ) ;
#234 = ORIENTED_EDGE ( 'NONE', *, *, #329, .F. ) ;
#235 = CARTESIAN_POINT ( 'NONE',  ( 3.000000000000000000, 1.555301434917138433E-15, -12.69999999999999929 ) ) ;
#236 = CC_DESIGN_SECURITY_CLASSIFICATION ( #223, ( #253 ) ) ;
#237 = AXIS2_PLACEMENT_3D ( 'NONE', #238, #317, #296 ) ;
#238 = CARTESIAN_POINT ( 'NONE',  ( -3.000000000000000000, 0.000000000000000000, 0.000000000000000000 ) ) ;
#239 = DIRECTION ( 'NONE',  ( 1.000000000000000000, 0.000000000000000000, 0.000000000000000000 ) ) ;
#240 = APPROVAL ( #142, 'UNSPECIFIED' ) ;
#241 = DIRECTION ( 'NONE',  ( 0.000000000000000000, 0.000000000000000000, -1.000000000000000000 ) ) ;
#242 = CC_DESIGN_PERSON_AND_ORGANIZATION_ASSIGNMENT ( #163, #136, ( #307 ) ) ;
#243 = AXIS2_PLACEMENT_3D ( 'NONE', #139, #37, #251 ) ;
#244 = DIRECTION ( 'NONE',  ( -0.000000000000000000, 0.000000000000000000, 1.000000000000000000 ) ) ;
#245 = AXIS2_PLACEMENT_3D ( 'NONE', #182, #60, #128 ) ;
#246 = DIRECTION ( 'NONE',  ( -1.000000000000000000, -0.000000000000000000, -0.000000000000000000 ) ) ;
#247 = DIRECTION ( 'NONE',  ( -1.000000000000000000, -0.000000000000000000, -0.000000000000000000 ) ) ;
#248 = COORDINATED_UNIVERSAL_TIME_OFFSET ( 8, 0, .AHEAD. ) ;
#249 = AXIS2_PLACEMENT_3D ( 'NONE', #181, #261, #264 ) ;
#250 = PERSON_AND_ORGANIZATION ( #310, #9 ) ;
#251 = DIRECTION ( 'NONE',  ( 0.000000000000000000, 0.000000000000000000, -1.000000000000000000 ) ) ;
#252 = CARTESIAN_POINT ( 'NONE',  ( 2.500000000000000888, 0.000000000000000000, 0.000000000000000000 ) ) ;
#253 = PRODUCT_DEFINITION_FORMATION_WITH_SPECIFIED_SOURCE ( 'ANY', '', #307, .NOT_KNOWN. ) ;
#254 = EDGE_LOOP ( 'NONE', ( #22, #121, #147, #50 ) ) ;
#255 = APPLICATION_PROTOCOL_DEFINITION ( 'international standard', 'config_control_design', 1994, #278 ) ;
#256 = EDGE_LOOP ( 'NONE', ( #169, #227 ) ) ;
#257 = ORIENTED_EDGE ( 'NONE', *, *, #82, .F. ) ;
#258 = ADVANCED_FACE ( 'NONE', ( #191 ), #321, .T. ) ;
#259 = VERTEX_POINT ( 'NONE', #299 ) ;
#260 = ORIENTED_EDGE ( 'NONE', *, *, #129, .F. ) ;
#261 = DIRECTION ( 'NONE',  ( -1.000000000000000000, -0.000000000000000000, -0.000000000000000000 ) ) ;
#262 = DIRECTION ( 'NONE',  ( -1.000000000000000000, -0.000000000000000000, -0.000000000000000000 ) ) ;
#263 = AXIS2_PLACEMENT_3D ( 'NONE', #141, #319, #184 ) ;
#264 = DIRECTION ( 'NONE',  ( 0.000000000000000000, 0.000000000000000000, 1.000000000000000000 ) ) ;
#265 = CYLINDRICAL_SURFACE ( 'NONE', #302, 10.00000000000000000 ) ;
#266 = FACE_OUTER_BOUND ( 'NONE', #305, .T. ) ;
#267 = CIRCLE ( 'NONE', #200, 10.00000000000000000 ) ;
#268 = DIRECTION ( 'NONE',  ( -1.000000000000000000, -0.000000000000000000, -0.000000000000000000 ) ) ;
#269 = CARTESIAN_POINT ( 'NONE',  ( -1.614212418857619014, 0.000000000000000000, 0.000000000000000000 ) ) ;
#270 = DIRECTION ( 'NONE',  ( 0.000000000000000000, 0.000000000000000000, 1.000000000000000000 ) ) ;
#271 = CARTESIAN_POINT ( 'NONE',  ( -1.614212418857619014, 1.555301434917138433E-15, -12.69999999999999929 ) ) ;
#272 = EDGE_CURVE ( 'NONE', #259, #98, #214, .T. ) ;
#273 = CIRCLE ( 'NONE', #23, 10.00000000000000000 ) ;
#274 = PERSON_AND_ORGANIZATION ( #310, #9 ) ;
#275 = CARTESIAN_POINT ( 'NONE',  ( 2.500000000000000888, 1.224646799147353256E-15, -10.00000000000000000 ) ) ;
#276 = APPROVAL_ROLE ( '' ) ;
#277 =( NAMED_UNIT ( * ) SI_UNIT ( $, .STERADIAN. ) SOLID_ANGLE_UNIT ( ) );
#278 = APPLICATION_CONTEXT ( 'configuration controlled 3d designs of mechanical parts and assemblies' ) ;
#279 = DATE_AND_TIME ( #66, #86 ) ;
#280 = LOCAL_TIME ( 9, 25, 29.00000000000000000, #159 ) ;
#281 = EDGE_LOOP ( 'NONE', ( #199, #332, #330, #72 ) ) ;
#282 = EDGE_CURVE ( 'NONE', #285, #204, #165, .T. ) ;
#283 = ORIENTED_EDGE ( 'NONE', *, *, #314, .T. ) ;
#284 = ORIENTED_EDGE ( 'NONE', *, *, #202, .T. ) ;
#285 = VERTEX_POINT ( 'NONE', #137 ) ;
#286 = AXIS2_PLACEMENT_3D ( 'NONE', #303, #18, #115 ) ;
#287 = ORIENTED_EDGE ( 'NONE', *, *, #67, .T. ) ;
#288 = DIRECTION ( 'NONE',  ( -1.000000000000000000, -0.000000000000000000, -0.000000000000000000 ) ) ;
#289 = PRODUCT_DEFINITION_SHAPE ( 'NONE', 'NONE',  #230 ) ;
#290 = CARTESIAN_POINT ( 'NONE',  ( -3.000000000000000444, 0.000000000000000000, 10.00000000000000000 ) ) ;
#291 = AXIS2_PLACEMENT_3D ( 'NONE', #20, #270, #97 ) ;
#292 = CC_DESIGN_PERSON_AND_ORGANIZATION_ASSIGNMENT ( #140, #193, ( #230 ) ) ;
#293 = DIRECTION ( 'NONE',  ( 1.000000000000000000, 0.000000000000000000, 0.000000000000000000 ) ) ;
#294 = FACE_OUTER_BOUND ( 'NONE', #225, .T. ) ;
#295 = UNCERTAINTY_MEASURE_WITH_UNIT (LENGTH_MEASURE( 1.000000000000000082E-05 ), #186, 'distance_accuracy_value', 'NONE');
#296 = DIRECTION ( 'NONE',  ( 0.000000000000000000, 0.000000000000000000, 1.000000000000000000 ) ) ;
#297 = APPROVAL_PERSON_ORGANIZATION ( #71, #52, #276 ) ;
#298 = CIRCLE ( 'NONE', #3, 12.69999999999999929 ) ;
#299 = CARTESIAN_POINT ( 'NONE',  ( 2.999999999999999112, 0.000000000000000000, 10.00000000000000000 ) ) ;
#300 = PERSON_AND_ORGANIZATION_ROLE ( 'classification_officer' ) ;
#301 = CARTESIAN_POINT ( 'NONE',  ( 2.999999999999999112, 0.000000000000000000, 0.000000000000000000 ) ) ;
#302 = AXIS2_PLACEMENT_3D ( 'NONE', #30, #109, #105 ) ;
#303 = CARTESIAN_POINT ( 'NONE',  ( -1.614212418857619014, 0.000000000000000000, 0.000000000000000000 ) ) ;
#304 = CALENDAR_DATE ( 2020, 23, 12 ) ;
#305 = EDGE_LOOP ( 'NONE', ( #123, #234 ) ) ;
#306 = VECTOR ( 'NONE', #262, 1000.000000000000000 ) ;
#307 = PRODUCT ( 'Q-QZWP-R4-20-266-M', 'Q-QZWP-R4-20-266-M', '', ( #24 ) ) ;
#308 = VERTEX_POINT ( 'NONE', #275 ) ;
#309 = VERTEX_POINT ( 'NONE', #111 ) ;
#310 = PERSON ( 'UNSPECIFIED', 'UNSPECIFIED', 'UNSPECIFIED', ('UNSPECIFIED'), ('UNSPECIFIED'), ('UNSPECIFIED') ) ;
#311 = ORIENTED_EDGE ( 'NONE', *, *, #190, .F. ) ;
#312 = CARTESIAN_POINT ( 'NONE',  ( -1.614212418857619014, 1.224646799147353256E-15, -10.00000000000000000 ) ) ;
#313 = VERTEX_POINT ( 'NONE', #85 ) ;
#314 = EDGE_CURVE ( 'NONE', #285, #76, #21, .T. ) ;
#315 = CARTESIAN_POINT ( 'NONE',  ( -3.000000000000000444, 0.000000000000000000, 0.000000000000000000 ) ) ;
#316 = DIRECTION ( 'NONE',  ( 1.000000000000000000, 0.000000000000000000, 0.000000000000000000 ) ) ;
#317 = DIRECTION ( 'NONE',  ( -1.000000000000000000, -0.000000000000000000, -0.000000000000000000 ) ) ;
#318 = AXIS2_PLACEMENT_3D ( 'NONE', #68, #188, #327 ) ;
#319 = DIRECTION ( 'NONE',  ( -1.000000000000000000, -0.000000000000000000, -0.000000000000000000 ) ) ;
#320 = DATE_AND_TIME ( #196, #280 ) ;
#321 = CYLINDRICAL_SURFACE ( 'NONE', #286, 12.69999999999999929 ) ;
#322 = PERSON_AND_ORGANIZATION_ROLE ( 'creator' ) ;
#323 = ADVANCED_BREP_SHAPE_REPRESENTATION ( 'Q-QZWP-R4-20-266-M', ( #197, #291 ), #205 ) ;
#324 = DIRECTION ( 'NONE',  ( 0.000000000000000000, 0.000000000000000000, 1.000000000000000000 ) ) ;
#325 = COORDINATED_UNIVERSAL_TIME_OFFSET ( 8, 0, .AHEAD. ) ;
#326 = CC_DESIGN_APPROVAL ( #16, ( #230 ) ) ;
#327 = DIRECTION ( 'NONE',  ( 0.000000000000000000, 0.000000000000000000, 1.000000000000000000 ) ) ;
#328 = SHAPE_DEFINITION_REPRESENTATION ( #289, #323 ) ;
#329 = EDGE_CURVE ( 'NONE', #308, #98, #132, .T. ) ;
#330 = ORIENTED_EDGE ( 'NONE', *, *, #282, .T. ) ;
#331 = CC_DESIGN_PERSON_AND_ORGANIZATION_ASSIGNMENT ( #46, #322, ( #253 ) ) ;
#332 = ORIENTED_EDGE ( 'NONE', *, *, #129, .T. ) ;
#333 = CIRCLE ( 'NONE', #192, 10.00000000000000000 ) ;
#334 = EDGE_LOOP ( 'NONE', ( #175, #119, #26, #49 ) ) ;
#335 = EDGE_LOOP ( 'NONE', ( #257, #148 ) ) ;
ENDSEC;
END-ISO-10303-21;
